  0
SECTION
  2
HEADER
  9
$ACADVER
  1
AC1009
  9
$INSBASE
 10
-283.5190670321696
 20
218.5041205997811
 30
0.0
  9
$EXTMIN
 10
-284.036833985136
 20
217.9863536468252
 30
0.0
  9
$EXTMAX
 10
566.1160448534349
 20
406.9317755904078
 30
0.0
  9
$LIMMIN
 10
0.0
 20
0.0
  9
$LIMMAX
 10
420.0
 20
297.0
  9
$ORTHOMODE
 70
     1
  9
$REGENMODE
 70
     0
  9
$FILLMODE
 70
     1
  9
$QTEXTMODE
 70
     0
  9
$MIRRTEXT
 70
     0
  9
$DRAGMODE
 70
     2
  9
$LTSCALE
 40
1.0
  9
$OSMODE
 70
     0
  9
$ATTMODE
 70
     1
  9
$TEXTSIZE
 40
3.5
  9
$TRACEWID
 40
0.1
  9
$TEXTSTYLE
  7
STANDARD
  9
$CLAYER
  8
4AN
  9
$CELTYPE
  6
BYLAYER
  9
$CECOLOR
 62
   256
  9
$DIMSCALE
 40
1.0
  9
$DIMASZ
 40
2.5
  9
$DIMEXO
 40
1.0
  9
$DIMDLI
 40
8.0
  9
$DIMRND
 40
0.0
  9
$DIMDLE
 40
0.0
  9
$DIMEXE
 40
2.0
  9
$DIMTP
 40
0.1
  9
$DIMTM
 40
0.1
  9
$DIMTXT
 40
3.5
  9
$DIMCEN
 40
2.0
  9
$DIMTSZ
 40
0.0
  9
$DIMTOL
 70
     0
  9
$DIMLIM
 70
     0
  9
$DIMTIH
 70
     0
  9
$DIMTOH
 70
     0
  9
$DIMSE1
 70
     0
  9
$DIMSE2
 70
     0
  9
$DIMTAD
 70
     1
  9
$DIMZIN
 70
     8
  9
$DIMBLK
  1

  9
$DIMASO
 70
     1
  9
$DIMSHO
 70
     1
  9
$DIMPOST
  1

  9
$DIMAPOST
  1

  9
$DIMALT
 70
     0
  9
$DIMALTD
 70
     2
  9
$DIMALTF
 40
25.39999999999999
  9
$DIMLFAC
 40
1.0
  9
$DIMTOFL
 70
     1
  9
$DIMTVP
 40
0.0
  9
$DIMTIX
 70
     0
  9
$DIMSOXD
 70
     0
  9
$DIMSAH
 70
     0
  9
$DIMBLK1
  1

  9
$DIMBLK2
  1

  9
$DIMSTYLE
  2
*UNNAMED
  9
$DIMCLRD
 70
   256
  9
$DIMCLRE
 70
   256
  9
$DIMCLRT
 70
     2
  9
$DIMTFAC
 40
0.71
  9
$DIMGAP
 40
1.5
  9
$LUNITS
 70
     2
  9
$LUPREC
 70
     3
  9
$SKETCHINC
 40
0.1
  9
$FILLETRAD
 40
2.5
  9
$AUNITS
 70
     0
  9
$AUPREC
 70
     1
  9
$MENU
  1

  9
$ELEVATION
 40
0.0
  9
$PELEVATION
 40
0.0
  9
$THICKNESS
 40
0.0
  9
$LIMCHECK
 70
     0
  9
$BLIPMODE
 70
     0
  9
$CHAMFERA
 40
2.5
  9
$CHAMFERB
 40
2.5
  9
$SKPOLY
 70
     1
  9
$TDCREATE
 40
2449366.372868981
  9
$TDUPDATE
 40
2449394.637781597
  9
$TDINDWG
 40
0.0111262731
  9
$TDUSRTIMER
 40
0.0111262731
  9
$USRTIMER
 70
     1
  9
$ANGBASE
 50
0.0
  9
$ANGDIR
 70
     0
  9
$PDMODE
 70
     3
  9
$PDSIZE
 40
0.0
  9
$PLINEWID
 40
0.0
  9
$COORDS
 70
     2
  9
$SPLFRAME
 70
     0
  9
$SPLINETYPE
 70
     6
  9
$SPLINESEGS
 70
     8
  9
$ATTDIA
 70
     1
  9
$ATTREQ
 70
     1
  9
$HANDLING
 70
     0
  9
$HANDSEED
  5
2CD0D47
  9
$SURFTAB1
 70
     6
  9
$SURFTAB2
 70
     6
  9
$SURFTYPE
 70
     6
  9
$SURFU
 70
     6
  9
$SURFV
 70
     6
  9
$UCSNAME
  2

  9
$UCSORG
 10
0.0
 20
0.0
 30
0.0
  9
$UCSXDIR
 10
1.0
 20
0.0
 30
0.0
  9
$UCSYDIR
 10
0.0
 20
1.0
 30
0.0
  9
$PUCSNAME
  2

  9
$PUCSORG
 10
0.0
 20
0.0
 30
0.0
  9
$PUCSXDIR
 10
1.0
 20
0.0
 30
0.0
  9
$PUCSYDIR
 10
0.0
 20
1.0
 30
0.0
  9
$USERI1
 70
     0
  9
$USERI2
 70
     3
  9
$USERI3
 70
    15
  9
$USERI4
 70
     0
  9
$USERI5
 70
     0
  9
$USERR1
 40
1.0
  9
$USERR2
 40
1.0
  9
$USERR3
 40
0.0
  9
$USERR4
 40
1.0
  9
$USERR5
 40
0.0
  9
$WORLDVIEW
 70
     5
  9
$SHADEDGE
 70
     3
  9
$SHADEDIF
 70
    70
  9
$TILEMODE
 70
     1
  9
$MAXACTVP
 70
     4
  9
$PINSBASE
 10
0.0
 20
0.0
 30
0.0
  9
$PLIMCHECK
 70
     0
  9
$PEXTMIN
 10
1.000000000000000E+20
 20
1.000000000000000E+20
 30
1.000000000000000E+20
  9
$PEXTMAX
 10
-1.000000000000000E+20
 20
-1.000000000000000E+20
 30
-1.000000000000000E+20
  9
$PLIMMIN
 10
0.0
 20
0.0
  9
$PLIMMAX
 10
420.0
 20
297.0
  9
$UNITMODE
 70
     0
  9
$VISRETAIN
 70
     0
  9
$PLINEGEN
 70
     0
  9
$PSLTSCALE
 70
     0
  9
$TREEDEPTH
 70
  3020
  9
$DWGCODEPAGE
  3
undefined
  0
ENDSEC
  0
SECTION
  2
TABLES
  0
TABLE
  2
VPORT
 70
     2
  0
VPORT
  2
*ACTIVE
 70
     0
 10
0.0
 20
0.0
 11
1.0
 21
1.0
 12
140.8842753482595
 22
551.1931813641004
 13
0.0
 23
0.0
 14
7.0
 24
7.0
 15
10.0
 25
10.0
 16
0.0
 26
0.0
 36
1.0
 17
0.0
 27
0.0
 37
0.0
 40
665.3781215286388
 41
1.275675675675675
 42
50.0
 43
0.0
 44
0.0
 50
0.0
 51
0.0
 71
     0
 72
   100
 73
     1
 74
     0
 75
     0
 76
     0
 77
     0
 78
     0
  0
ENDTAB
  0
TABLE
  2
LTYPE
 70
     3
  0
LTYPE
  2
CONTINUOUS
 70
    64
  3
Solid line
 72
    65
 73
     0
 40
0.0
  0
LTYPE
  2
GEN
 70
    64
  3
----------------------
 72
    65
 73
     2
 40
10000000000.0
 49
0.0
 49
10000000000.0
  0
LTYPE
  2
AUSGEZOGEN
 70
    64
  3
Solid line
 72
    65
 73
     0
 40
0.0
  0
ENDTAB
  0
TABLE
  2
LAYER
 70
     8
  0
LAYER
  2
0
 70
    64
 62
     7
  6
GEN
  0
LAYER
  2
4
 70
    64
 62
     3
  6
GEN
  0
LAYER
  2
DEFPOINTS
 70
    64
 62
    -7
  6
GEN
  0
LAYER
  2
AIT$50
 70
    64
 62
     7
  6
CONTINUOUS
  0
LAYER
  2
PG-4
 70
    64
 62
     3
  6
AUSGEZOGEN
  0
LAYER
  2
PG-0
 70
    64
 62
     7
  6
AUSGEZOGEN
  0
LAYER
  2
ITEM_HILFE
 70
    64
 62
     3
  6
CONTINUOUS
  0
LAYER
  2
4AN
 70
     0
 62
     3
  6
CONTINUOUS
  0
ENDTAB
  0
TABLE
  2
STYLE
 70
     1
  0
STYLE
  2
STANDARD
 70
     0
 40
0.0
 41
1.0
 50
0.0
 71
     0
 42
3.5
  3
GENISO
  4

  0
ENDTAB
  0
TABLE
  2
VIEW
 70
     0
  0
ENDTAB
  0
TABLE
  2
UCS
 70
     0
  0
ENDTAB
  0
TABLE
  2
APPID
 70
     1
  0
APPID
  2
ACAD
 70
    64
  0
ENDTAB
  0
TABLE
  2
DIMSTYLE
 70
     0
  0
ENDTAB
  0
ENDSEC
  0
SECTION
  2
BLOCKS
  0
ENDSEC
  0
SECTION
  2
ENTITIES
  0
POINT
  8
ITEM_HILFE
 10
485.2876177286888
 20
385.8439154744827
 30
0.0
  0
POINT
  8
ITEM_HILFE
 10
489.7876177286888
 20
385.8439154744827
 30
0.0
  0
POINT
  8
ITEM_HILFE
 10
489.7876177286888
 20
346.3627829021763
 30
0.0
  0
POINT
  8
ITEM_HILFE
 10
485.2876177286888
 20
346.3627829021763
 30
0.0
  0
POINT
  8
ITEM_HILFE
 10
126.6424955812064
 20
346.3627829021763
 30
0.0
  0
POINT
  8
ITEM_HILFE
 10
131.1424955812064
 20
346.3627829021763
 30
0.0
  0
POINT
  8
ITEM_HILFE
 10
131.1424955812064
 20
385.8439154744827
 30
0.0
  0
POINT
  8
ITEM_HILFE
 10
126.6424955812064
 20
385.8439154744827
 30
0.0
  0
ARC
  8
0
 10
561.2876177286887
 20
402.1033484656509
 30
0.0
 40
4.0
 50
0.0
 51
90.0
  0
ARC
  8
0
 10
561.2876177286887
 20
330.1033484656509
 30
0.0
 40
4.0
 50
270.0
 51
0.0
  0
LINE
  8
0
 10
565.2876177286887
 20
402.1033499109867
 30
0.0
 11
565.2876177286887
 21
330.1033484656509
 31
0.0
  0
LINE
  8
0
 10
453.6117517866394
 20
406.1033484656618
 30
0.0
 11
173.6117517866396
 21
406.1033484656616
 31
0.0
  0
LINE
  8
0
 10
453.6117517866394
 20
326.103348465662
 30
0.0
 11
173.6117517866396
 21
326.1033484656617
 31
0.0
  0
LINE
  8
0
 10
173.6117517866397
 20
406.1033484656616
 30
0.0
 11
173.6117517866397
 21
326.103348465662
 31
0.0
  0
LINE
  8
0
 10
453.6117517866396
 20
406.1033484656621
 30
0.0
 11
453.6117517866396
 21
326.103348465662
 31
0.0
  0
POLYLINE
  8
0
 66
     1
 10
0.0
 20
0.0
 30
0.0
 70
     1
  0
VERTEX
  8
0
 10
246.8367517866396
 20
364.2033484656683
 30
0.0
  0
VERTEX
  8
0
 10
380.3867517866397
 20
364.2033484656683
 30
0.0
  0
VERTEX
  8
0
 10
380.3867517866397
 20
370.0033484656683
 30
0.0
  0
VERTEX
  8
0
 10
246.8367517866396
 20
370.0033484656683
 30
0.0
  0
SEQEND
  8
0
  0
LINE
  8
4
 10
203.6117517866473
 20
388.1033484656732
 30
0.0
 11
203.6117517866472
 21
344.1033484656732
 31
0.0
  0
LINE
  8
4
 10
423.6117517866472
 20
388.1033484656732
 30
0.0
 11
423.6117517866472
 21
344.1033484656732
 31
0.0
  0
LINE
  8
4
 10
207.6117517866473
 20
392.1033484656732
 30
0.0
 11
419.6117517866472
 21
392.1033484656732
 31
0.0
  0
LINE
  8
4
 10
207.6117517866472
 20
340.1033484656732
 30
0.0
 11
419.6117517866472
 21
340.1033484656732
 31
0.0
  0
ARC
  8
4
 10
207.6117517866473
 20
388.1033484656732
 30
0.0
 40
4.0
 50
89.99999999999998
 51
180.0
  0
ARC
  8
4
 10
207.6117517866472
 20
344.1033484656732
 30
0.0
 40
4.0
 50
180.0
 51
270.0
  0
ARC
  8
4
 10
419.6117517866472
 20
344.1033484656732
 30
0.0
 40
4.0
 50
270.0
 51
0.0
  0
ARC
  8
4
 10
419.6117517866472
 20
388.1033484656732
 30
0.0
 40
4.0
 50
0.0
 51
90.0
  0
ARC
  8
0
 10
236.6117517866472
 20
373.1033484656732
 30
0.0
 40
2.25
 50
89.99999999999998
 51
180.0
  0
LINE
  8
0
 10
234.3617517866473
 20
373.1033484656732
 30
0.0
 11
234.3617517866473
 21
359.1033484656732
 31
0.0
  0
ARC
  8
0
 10
236.6117517866472
 20
359.1033484656732
 30
0.0
 40
2.25
 50
180.0
 51
270.0
  0
LINE
  8
0
 10
236.6117517866472
 20
356.8533484656732
 30
0.0
 11
390.6117517866474
 21
356.8533484656732
 31
0.0
  0
ARC
  8
0
 10
390.6117517866474
 20
359.1033484656732
 30
0.0
 40
2.25
 50
270.0
 51
0.0
  0
LINE
  8
0
 10
392.8617517866474
 20
373.1033484656732
 30
0.0
 11
392.8617517866474
 21
359.1033484656732
 31
0.0
  0
ARC
  8
0
 10
390.6117517866474
 20
373.1033484656732
 30
0.0
 40
2.25
 50
0.0
 51
90.0
  0
LINE
  8
0
 10
236.6117517866472
 20
375.3533484656732
 30
0.0
 11
390.6117517866474
 21
375.3533484656732
 31
0.0
  0
ARC
  8
0
 10
236.6117517866472
 20
373.1033484656732
 30
0.0
 40
2.75
 50
89.99999999999998
 51
180.0
  0
LINE
  8
0
 10
233.8617517866473
 20
373.1033484656732
 30
0.0
 11
233.8617517866473
 21
359.1033484656732
 31
0.0
  0
ARC
  8
0
 10
236.6117517866472
 20
359.1033484656732
 30
0.0
 40
2.75
 50
180.0
 51
270.0
  0
LINE
  8
0
 10
236.6117517866472
 20
356.3533484656732
 30
0.0
 11
390.6117517866474
 21
356.3533484656732
 31
0.0
  0
LINE
  8
0
 10
236.6117517866472
 20
375.8533484656732
 30
0.0
 11
390.6117517866474
 21
375.8533484656732
 31
0.0
  0
ARC
  8
0
 10
390.6117517866474
 20
373.1033484656732
 30
0.0
 40
2.75
 50
0.0
 51
90.0
  0
LINE
  8
0
 10
393.3617517866474
 20
373.1033484656732
 30
0.0
 11
393.3617517866474
 21
359.1033484656732
 31
0.0
  0
ARC
  8
0
 10
390.6117517866474
 20
359.1033484656732
 30
0.0
 40
2.75
 50
270.0
 51
0.0
  0
POLYLINE
  8
0
 66
     1
 10
0.0
 20
0.0
 30
0.0
 40
0.5
 41
0.5
  0
VERTEX
  8
0
 10
393.1117517866474
 20
373.1033484656732
 30
0.0
 42
0.414213562373095
  0
VERTEX
  8
0
 10
390.6117517866474
 20
375.6033484656732
 30
0.0
 42
1.0
  0
SEQEND
  8
0
  0
POLYLINE
  8
0
 66
     1
 10
0.0
 20
0.0
 30
0.0
 40
0.5
 41
0.5
  0
VERTEX
  8
0
 10
390.6117517866474
 20
356.6033484656732
 30
0.0
 42
0.414213562373095
  0
VERTEX
  8
0
 10
393.1117517866474
 20
359.1033484656732
 30
0.0
 42
1.0
  0
SEQEND
  8
0
  0
SOLID
  8
0
 10
392.8617517866474
 20
373.1033484656732
 30
0.0
 11
393.3617517866474
 21
373.1033484656732
 31
0.0
 12
392.8617517866474
 22
359.1033484656732
 32
0.0
 13
393.3617517866474
 23
359.1033484656732
 33
0.0
  0
POLYLINE
  8
0
 66
     1
 10
0.0
 20
0.0
 30
0.0
 40
0.5
 41
0.5
  0
VERTEX
  8
0
 10
236.6117517866472
 20
375.6033484656732
 30
0.0
 42
0.414213562373095
  0
VERTEX
  8
0
 10
234.1117517866473
 20
373.1033484656732
 30
0.0
 42
1.0
  0
SEQEND
  8
0
  0
POLYLINE
  8
0
 66
     1
 10
0.0
 20
0.0
 30
0.0
 40
0.5
 41
0.5
  0
VERTEX
  8
0
 10
234.1117517866473
 20
359.1033484656732
 30
0.0
 42
0.414213562373095
  0
VERTEX
  8
0
 10
236.6117517866472
 20
356.6033484656732
 30
0.0
 42
1.0
  0
SEQEND
  8
0
  0
SOLID
  8
0
 10
233.8617517866473
 20
373.1033484656732
 30
0.0
 11
234.3617517866473
 21
373.1033484656732
 31
0.0
 12
233.8617517866473
 22
359.1033484656732
 32
0.0
 13
234.3617517866473
 23
359.1033484656732
 33
0.0
  0
SOLID
  8
0
 10
236.6117517866472
 20
375.8533484656732
 30
0.0
 11
236.6117517866472
 21
375.3533484656732
 31
0.0
 12
390.6117517866474
 22
375.8533484656732
 32
0.0
 13
390.6117517866474
 23
375.3533484656732
 33
0.0
  0
SOLID
  8
0
 10
390.6117517866474
 20
356.8533484656732
 30
0.0
 11
390.6117517866474
 21
356.3533484656732
 31
0.0
 12
236.6117517866472
 22
356.8533484656732
 32
0.0
 13
236.6117517866472
 23
356.3533484656732
 33
0.0
  0
ARC
  8
0
 10
172.1117517866397
 20
328.6033484656612
 30
0.0
 40
2.5
 50
180.0
 51
270.0
  0
ARC
  8
0
 10
172.1117517866397
 20
403.6033484656616
 30
0.0
 40
2.5
 50
90.0
 51
180.0
  0
LINE
  8
0
 10
173.6117517866397
 20
326.1033484656612
 30
0.0
 11
172.1117517866397
 21
326.1033484656612
 31
0.0
  0
LINE
  8
0
 10
173.6117517866397
 20
406.1033484656616
 30
0.0
 11
172.1117517866397
 21
406.1033484656616
 31
0.0
  0
LINE
  8
0
 10
169.6117517866397
 20
403.6033484656616
 30
0.0
 11
169.6117517866397
 21
328.6033484656612
 31
0.0
  0
LINE
  8
PG-0
 10
153.9416477723133
 20
348.6033484656693
 30
0.0
 11
156.7603140274895
 21
348.6033484656693
 31
0.0
  0
ARC
  8
PG-0
 10
153.6838539884271
 20
352.1666993949596
 30
0.0
 40
3.572663919302099
 50
181.0160292714396
 51
274.1379048775629
  0
LINE
  8
PG-0
 10
150.111751786636
 20
352.1033484656693
 30
0.0
 11
150.111751786636
 21
356.1033484656684
 31
0.0
  0
LINE
  8
PG-0
 10
150.111751786636
 20
360.1033484656675
 30
0.0
 11
150.111751786636
 21
356.1033484656684
 31
0.0
  0
LINE
  8
PG-0
 10
153.9416477723133
 20
363.6033484656675
 30
0.0
 11
156.7603140274896
 21
363.6033484656675
 31
0.0
  0
ARC
  8
PG-0
 10
153.6838539884271
 20
360.0399975363773
 30
0.0
 40
3.572663919302099
 50
85.86209512243689
 51
178.98397072856
  0
LINE
  8
PG-4
 10
162.1117517866381
 20
350.6033484656693
 30
0.0
 11
164.611751786637
 21
350.6033484656693
 31
0.0
  0
LINE
  8
PG-4
 10
162.1117517866381
 20
361.6033484656693
 30
0.0
 11
164.611751786637
 21
361.6033484656693
 31
0.0
  0
LINE
  8
PG-0
 10
162.1117517866381
 20
349.7033484656697
 30
0.0
 11
164.611751786637
 21
349.7033484656697
 31
0.0
  0
LINE
  8
PG-0
 10
162.1117517866381
 20
362.5033484656694
 30
0.0
 11
164.611751786637
 21
362.5033484656694
 31
0.0
  0
LINE
  8
PG-0
 10
162.1117517866381
 20
364.7533484656694
 30
0.0
 11
162.1117517866381
 21
347.4533484656697
 31
0.0
  0
LINE
  8
PG-0
 10
157.3504836047954
 20
364.7533484656694
 30
0.0
 11
162.1117517866381
 21
364.7533484656694
 31
0.0
  0
LINE
  8
PG-0
 10
157.3504836047949
 20
347.4533484656724
 30
0.0
 11
162.1117517866381
 21
347.4533484656693
 31
0.0
  0
LINE
  8
PG-0
 10
157.3504836047968
 20
351.7834754845774
 30
0.0
 11
162.1117517866381
 21
351.7834754845774
 31
0.0
  0
ARC
  8
PG-0
 10
160.1537846126865
 20
349.6184119751235
 30
0.0
 40
3.542032826049146
 50
142.3201418046181
 51
217.6798581953406
  0
LINE
  8
PG-0
 10
156.6117517866367
 20
362.5882849562206
 30
0.0
 11
156.6117517866373
 21
349.6184119751235
 31
0.0
  0
ARC
  8
PG-0
 10
169.6117517866455
 20
356.1033484656675
 30
0.0
 40
13.0
 50
160.5916905358059
 51
199.4083094641665
  0
LINE
  8
PG-0
 10
157.3504836047945
 20
360.4232214467641
 30
0.0
 11
162.1117517866381
 21
360.4232214467641
 31
0.0
  0
ARC
  8
PG-0
 10
160.1537846126883
 20
362.5882849562174
 30
0.0
 40
3.542032826051001
 50
142.3201418046511
 51
217.6798581953661
  0
LINE
  8
PG-0
 10
164.611751786637
 20
351.7834754845783
 30
0.0
 11
169.6117517866397
 21
351.7834754845783
 31
0.0
  0
LINE
  8
PG-0
 10
164.611751786637
 20
360.423221446765
 30
0.0
 11
169.6117517866397
 21
360.423221446765
 31
0.0
  0
LINE
  8
PG-0
 10
164.611751786637
 20
347.4533484656697
 30
0.0
 11
169.6117517866397
 21
347.4533484656697
 31
0.0
  0
LINE
  8
PG-0
 10
164.6117517866371
 20
364.7533484656694
 30
0.0
 11
164.611751786637
 21
347.4533484656697
 31
0.0
  0
LINE
  8
PG-0
 10
169.6117517866397
 20
364.7533484656694
 30
0.0
 11
164.6117517866371
 21
364.7533484656694
 31
0.0
  0
LINE
  8
PG-0
 10
169.6117517866397
 20
364.7533484656694
 30
0.0
 11
169.6117517866397
 21
347.4533484656697
 31
0.0
  0
LINE
  8
PG-0
 10
153.9416477723133
 20
368.603348465663
 30
0.0
 11
156.7603140274895
 21
368.603348465663
 31
0.0
  0
ARC
  8
PG-0
 10
153.6838539884271
 20
372.1666993949527
 30
0.0
 40
3.572663919302099
 50
181.0160292714396
 51
274.1379048775629
  0
LINE
  8
PG-0
 10
150.111751786636
 20
372.103348465663
 30
0.0
 11
150.111751786636
 21
376.1033484656621
 31
0.0
  0
LINE
  8
PG-0
 10
150.111751786636
 20
380.1033484656612
 30
0.0
 11
150.111751786636
 21
376.1033484656621
 31
0.0
  0
LINE
  8
PG-0
 10
153.9416477723133
 20
383.6033484656607
 30
0.0
 11
156.7603140274896
 21
383.6033484656607
 31
0.0
  0
ARC
  8
PG-0
 10
153.6838539884271
 20
380.039997536371
 30
0.0
 40
3.572663919302099
 50
85.86209512243689
 51
178.98397072856
  0
LINE
  8
PG-4
 10
162.1117517866381
 20
370.603348465663
 30
0.0
 11
164.611751786637
 21
370.603348465663
 31
0.0
  0
LINE
  8
PG-4
 10
162.1117517866381
 20
381.603348465663
 30
0.0
 11
164.611751786637
 21
381.603348465663
 31
0.0
  0
LINE
  8
PG-0
 10
162.1117517866381
 20
369.7033484656629
 30
0.0
 11
164.611751786637
 21
369.7033484656629
 31
0.0
  0
LINE
  8
PG-0
 10
162.1117517866381
 20
382.5033484656631
 30
0.0
 11
164.611751786637
 21
382.5033484656631
 31
0.0
  0
LINE
  8
PG-0
 10
162.1117517866381
 20
384.7533484656631
 30
0.0
 11
162.1117517866381
 21
367.4533484656629
 31
0.0
  0
LINE
  8
PG-0
 10
157.3504836047954
 20
384.7533484656631
 30
0.0
 11
162.1117517866381
 21
384.7533484656631
 31
0.0
  0
LINE
  8
PG-0
 10
157.3504836047949
 20
367.4533484656661
 30
0.0
 11
162.1117517866381
 21
367.4533484656624
 31
0.0
  0
LINE
  8
PG-0
 10
157.3504836047968
 20
371.783475484571
 30
0.0
 11
162.1117517866381
 21
371.783475484571
 31
0.0
  0
ARC
  8
PG-0
 10
160.1537846126865
 20
369.6184119751172
 30
0.0
 40
3.542032826049146
 50
142.3201418046181
 51
217.6798581953406
  0
LINE
  8
PG-0
 10
156.6117517866367
 20
382.5882849562142
 30
0.0
 11
156.6117517866373
 21
369.6184119751172
 31
0.0
  0
ARC
  8
PG-0
 10
169.6117517866455
 20
376.1033484656612
 30
0.0
 40
13.0
 50
160.5916905358059
 51
199.4083094641665
  0
LINE
  8
PG-0
 10
157.3504836047945
 20
380.4232214467577
 30
0.0
 11
162.1117517866381
 21
380.4232214467577
 31
0.0
  0
ARC
  8
PG-0
 10
160.1537846126883
 20
382.5882849562111
 30
0.0
 40
3.542032826051001
 50
142.3201418046511
 51
217.6798581953661
  0
LINE
  8
PG-0
 10
164.611751786637
 20
371.7834754845719
 30
0.0
 11
169.6117517866397
 21
371.7834754845719
 31
0.0
  0
LINE
  8
PG-0
 10
164.611751786637
 20
380.4232214467586
 30
0.0
 11
169.6117517866397
 21
380.4232214467586
 31
0.0
  0
LINE
  8
PG-0
 10
164.611751786637
 20
367.4533484656629
 30
0.0
 11
169.6117517866397
 21
367.4533484656629
 31
0.0
  0
LINE
  8
PG-0
 10
164.6117517866371
 20
384.7533484656631
 30
0.0
 11
164.611751786637
 21
367.4533484656629
 31
0.0
  0
LINE
  8
PG-0
 10
169.6117517866397
 20
384.7533484656631
 30
0.0
 11
164.6117517866371
 21
384.7533484656631
 31
0.0
  0
LINE
  8
PG-0
 10
169.6117517866397
 20
384.7533484656631
 30
0.0
 11
169.6117517866397
 21
367.4533484656629
 31
0.0
  0
LINE
  8
0
 10
173.6117517866397
 20
406.1033484656721
 30
0.0
 11
173.6117517866397
 21
326.1033484656721
 31
0.0
  0
LINE
  8
0
 10
131.1424955812064
 20
402.1033499109974
 30
0.0
 11
131.1424955812064
 21
330.1033484656616
 31
0.0
  0
ARC
  8
0
 10
127.1424955812061
 20
402.1033484656616
 30
0.0
 40
4.0
 50
26.5650511770765
 51
89.99997255944401
  0
ARC
  8
0
 10
127.1424955812061
 20
402.1033484656616
 30
0.0
 40
4.0
 50
0.0
 51
26.5650511770765
  0
LINE
  8
0
 10
127.1424955812061
 20
406.1033484656616
 30
0.0
 11
55.14249558120618
 21
406.1033484656616
 31
0.0
  0
ARC
  8
0
 10
55.14249558120618
 20
402.1033484656616
 30
0.0
 40
4.0
 50
90.0
 51
180.0
  0
LINE
  8
0
 10
51.14249558120618
 20
402.1033484656616
 30
0.0
 11
51.14249558120618
 21
330.1033484656616
 31
0.0
  0
ARC
  8
0
 10
55.14249558120618
 20
330.1033484656616
 30
0.0
 40
4.0
 50
180.0
 51
270.0
  0
LINE
  8
0
 10
55.14249558120618
 20
326.1033484656616
 30
0.0
 11
127.1424955812061
 21
326.1033484656616
 31
0.0
  0
ARC
  8
0
 10
127.1424955812061
 20
330.1033484656616
 30
0.0
 40
4.0
 50
270.0000179901271
 51
333.4349488229221
  0
ARC
  8
0
 10
127.1424955812061
 20
330.1033484656616
 30
0.0
 40
4.0
 50
333.4349488229221
 51
0.0
  0
CIRCLE
  8
0
 10
124.6424955812032
 20
399.6033484656648
 30
0.0
 40
4.15
  0
CIRCLE
  8
0
 10
57.64249558120936
 20
399.6033484656648
 30
0.0
 40
4.15
  0
CIRCLE
  8
0
 10
124.6424955812032
 20
332.6033499109942
 30
0.0
 40
4.15
  0
CIRCLE
  8
0
 10
57.64249558120936
 20
332.6033499109942
 30
0.0
 40
4.15
  0
POINT
  8
DEFPOINTS
  6
BYBLOCK
 62
     0
 10
51.14249558120618
 20
402.1033484656616
 30
0.0
  0
POINT
  8
DEFPOINTS
  6
BYBLOCK
 62
     0
 10
55.14249558120618
 20
406.1033484656616
 30
0.0
  0
POINT
  8
DEFPOINTS
  6
BYBLOCK
 62
     0
 10
55.14249558120618
 20
406.1033484656616
 30
0.0
  0
CIRCLE
  8
0
 10
512.2876177286888
 20
356.1033484656468
 30
0.0
 40
3.5
  0
CIRCLE
  8
0
 10
512.2876177286888
 20
376.10334846564
 30
0.0
 40
3.5
  0
CIRCLE
  8
0
 10
512.2876177286888
 20
356.1033484656468
 30
0.0
 40
7.5
  0
CIRCLE
  8
0
 10
512.2876177286888
 20
376.10334846564
 30
0.0
 40
7.5
  0
POLYLINE
  8
0
 66
     1
 10
0.0
 20
0.0
 30
0.0
 70
     1
  0
VERTEX
  8
0
 10
512.2876177286888
 20
364.7533484656478
 30
0.0
  0
VERTEX
  8
0
 10
504.7964979859524
 20
360.4283484656471
 30
0.0
  0
VERTEX
  8
0
 10
504.7964979859524
 20
351.7783484656461
 30
0.0
  0
VERTEX
  8
0
 10
512.2876177286888
 20
347.4533484656458
 30
0.0
  0
VERTEX
  8
0
 10
519.7787374714251
 20
351.7783484656461
 30
0.0
  0
VERTEX
  8
0
 10
519.7787374714251
 20
360.4283484656471
 30
0.0
  0
SEQEND
  8
0
  0
POLYLINE
  8
0
 66
     1
 10
0.0
 20
0.0
 30
0.0
 70
     1
  0
VERTEX
  8
0
 10
512.2876177286888
 20
384.753348465641
 30
0.0
  0
VERTEX
  8
0
 10
504.7964979859524
 20
380.4283484656407
 30
0.0
  0
VERTEX
  8
0
 10
504.7964979859524
 20
371.7783484656397
 30
0.0
  0
VERTEX
  8
0
 10
512.2876177286888
 20
367.453348465639
 30
0.0
  0
VERTEX
  8
0
 10
519.7787374714251
 20
371.7783484656397
 30
0.0
  0
VERTEX
  8
0
 10
519.7787374714251
 20
380.4283484656407
 30
0.0
  0
SEQEND
  8
0
  0
POINT
  8
DEFPOINTS
  6
BYBLOCK
 62
     0
 10
489.2876177286888
 20
406.1033484656509
 30
0.0
  0
POINT
  8
DEFPOINTS
  6
BYBLOCK
 62
     0
 10
489.2876177286888
 20
406.1033484656509
 30
0.0
  0
POINT
  8
DEFPOINTS
  6
BYBLOCK
 62
     0
 10
485.2876177286888
 20
402.1033484656509
 30
0.0
  0
CIRCLE
  8
0
 10
491.7876177286919
 20
332.6033499109835
 30
0.0
 40
4.15
  0
CIRCLE
  8
0
 10
558.7876177286855
 20
332.6033499109835
 30
0.0
 40
4.15
  0
CIRCLE
  8
0
 10
491.7876177286919
 20
399.6033484656541
 30
0.0
 40
4.15
  0
CIRCLE
  8
0
 10
558.7876177286855
 20
399.6033484656541
 30
0.0
 40
4.15
  0
LINE
  8
0
 10
489.2876177286888
 20
326.1033484656509
 30
0.0
 11
561.2876177286887
 21
326.1033484656509
 31
0.0
  0
ARC
  8
0
 10
489.2876177286888
 20
330.1033484656509
 30
0.0
 40
4.0
 50
180.0
 51
270.0
  0
LINE
  8
0
 10
485.2876177286888
 20
402.1033484656509
 30
0.0
 11
485.2876177286888
 21
330.1033484656509
 31
0.0
  0
ARC
  8
0
 10
489.2876177286888
 20
402.1033484656509
 30
0.0
 40
4.0
 50
90.0
 51
180.0
  0
LINE
  8
0
 10
561.2876177286887
 20
406.1033484656509
 30
0.0
 11
489.2876177286888
 21
406.1033484656509
 31
0.0
  0
ARC
  8
0
 10
455.1117517866396
 20
403.6033484656578
 30
0.0
 40
2.5
 50
0.0
 51
89.99999999984366
  0
ARC
  8
0
 10
455.1117517866396
 20
328.6033484656505
 30
0.0
 40
2.5
 50
270.0000000000003
 51
0.0
  0
LINE
  8
0
 10
455.1117517866396
 20
326.1033484656505
 30
0.0
 11
453.6117517866396
 21
326.1033484656505
 31
0.0
  0
LINE
  8
0
 10
455.1117517866464
 20
406.1033484656578
 30
0.0
 11
453.6117517866396
 21
406.1033484656618
 31
0.0
  0
LINE
  8
0
 10
457.6117517866396
 20
403.6033484656578
 30
0.0
 11
457.6117517866396
 21
328.6033484656505
 31
0.0
  0
LINE
  8
0
 10
453.6117517866396
 20
406.1033484656618
 30
0.0
 11
453.6117517866396
 21
326.1033484656614
 31
0.0
  0
CIRCLE
  8
AIT$50
 10
57.64249558120936
 20
399.6033484656648
 30
0.0
 40
4.0
  0
LINE
  8
AIT$50
 10
55.34249558120964
 20
400.1033484656648
 30
0.0
 11
55.34249558120964
 21
399.1033484656647
 31
0.0
  0
LINE
  8
AIT$50
 10
57.14249558120948
 20
401.9033484656649
 30
0.0
 11
57.14249558120959
 21
400.1033484656648
 31
0.0
  0
LINE
  8
AIT$50
 10
58.14249558120948
 20
401.9033484656649
 30
0.0
 11
58.14249558120948
 21
400.1033484656648
 31
0.0
  0
LINE
  8
AIT$50
 10
55.34249558120964
 20
400.1033484656648
 30
0.0
 11
57.14249558120959
 21
400.1033484656649
 31
0.0
  0
LINE
  8
AIT$50
 10
55.34249558120964
 20
399.1033484656648
 30
0.0
 11
57.14249558120948
 21
399.1033484656648
 31
0.0
  0
LINE
  8
AIT$50
 10
57.14249558120959
 20
401.9033484656649
 30
0.0
 11
58.14249558120959
 21
401.9033484656649
 31
0.0
  0
LINE
  8
AIT$50
 10
57.14249558120959
 20
397.3033484656647
 30
0.0
 11
58.14249558120959
 21
397.3033484656647
 31
0.0
  0
LINE
  8
AIT$50
 10
59.9424955812092
 20
400.1033484656648
 30
0.0
 11
59.9424955812092
 21
399.1033484656647
 31
0.0
  0
LINE
  8
AIT$50
 10
57.14249558120959
 20
399.1033484656649
 30
0.0
 11
57.14249558120948
 21
397.3033484656647
 31
0.0
  0
LINE
  8
AIT$50
 10
58.14249558120959
 20
399.1033484656649
 30
0.0
 11
58.14249558120959
 21
397.3033484656647
 31
0.0
  0
LINE
  8
AIT$50
 10
58.14249558120959
 20
400.1033484656649
 30
0.0
 11
59.9424955812092
 21
400.1033484656648
 31
0.0
  0
LINE
  8
AIT$50
 10
58.14249558120948
 20
399.1033484656648
 30
0.0
 11
59.9424955812092
 21
399.1033484656648
 31
0.0
  0
LINE
  8
AIT$50
 10
125.1424955812033
 20
399.1033484656648
 30
0.0
 11
126.942495581203
 21
399.1033484656648
 31
0.0
  0
LINE
  8
AIT$50
 10
125.1424955812034
 20
400.1033484656649
 30
0.0
 11
126.942495581203
 21
400.1033484656648
 31
0.0
  0
LINE
  8
AIT$50
 10
125.1424955812034
 20
399.1033484656649
 30
0.0
 11
125.1424955812034
 21
397.3033484656647
 31
0.0
  0
LINE
  8
AIT$50
 10
124.1424955812034
 20
399.1033484656649
 30
0.0
 11
124.1424955812033
 21
397.3033484656647
 31
0.0
  0
LINE
  8
AIT$50
 10
126.942495581203
 20
400.1033484656648
 30
0.0
 11
126.942495581203
 21
399.1033484656647
 31
0.0
  0
LINE
  8
AIT$50
 10
124.1424955812034
 20
397.3033484656647
 30
0.0
 11
125.1424955812034
 21
397.3033484656647
 31
0.0
  0
LINE
  8
AIT$50
 10
124.1424955812034
 20
401.9033484656649
 30
0.0
 11
125.1424955812034
 21
401.9033484656649
 31
0.0
  0
LINE
  8
AIT$50
 10
122.3424955812035
 20
399.1033484656648
 30
0.0
 11
124.1424955812033
 21
399.1033484656648
 31
0.0
  0
LINE
  8
AIT$50
 10
122.3424955812035
 20
400.1033484656648
 30
0.0
 11
124.1424955812034
 21
400.1033484656649
 31
0.0
  0
LINE
  8
AIT$50
 10
125.1424955812033
 20
401.9033484656649
 30
0.0
 11
125.1424955812033
 21
400.1033484656648
 31
0.0
  0
LINE
  8
AIT$50
 10
124.1424955812033
 20
401.9033484656649
 30
0.0
 11
124.1424955812034
 21
400.1033484656648
 31
0.0
  0
LINE
  8
AIT$50
 10
122.3424955812035
 20
400.1033484656648
 30
0.0
 11
122.3424955812035
 21
399.1033484656647
 31
0.0
  0
CIRCLE
  8
AIT$50
 10
124.6424955812032
 20
399.6033484656648
 30
0.0
 40
4.0
  0
LINE
  8
AIT$50
 10
58.14249558120948
 20
332.1033499109942
 30
0.0
 11
59.9424955812092
 21
332.1033499109942
 31
0.0
  0
LINE
  8
AIT$50
 10
58.14249558120959
 20
333.1033499109943
 30
0.0
 11
59.9424955812092
 21
333.1033499109942
 31
0.0
  0
LINE
  8
AIT$50
 10
58.14249558120959
 20
332.1033499109943
 30
0.0
 11
58.14249558120959
 21
330.3033499109941
 31
0.0
  0
LINE
  8
AIT$50
 10
57.14249558120959
 20
332.1033499109943
 30
0.0
 11
57.14249558120948
 21
330.3033499109941
 31
0.0
  0
LINE
  8
AIT$50
 10
59.9424955812092
 20
333.1033499109942
 30
0.0
 11
59.9424955812092
 21
332.1033499109941
 31
0.0
  0
LINE
  8
AIT$50
 10
57.14249558120959
 20
330.3033499109941
 30
0.0
 11
58.14249558120959
 21
330.3033499109941
 31
0.0
  0
LINE
  8
AIT$50
 10
57.14249558120959
 20
334.9033499109943
 30
0.0
 11
58.14249558120959
 21
334.9033499109943
 31
0.0
  0
LINE
  8
AIT$50
 10
55.34249558120964
 20
332.1033499109942
 30
0.0
 11
57.14249558120948
 21
332.1033499109942
 31
0.0
  0
LINE
  8
AIT$50
 10
55.34249558120964
 20
333.1033499109942
 30
0.0
 11
57.14249558120959
 21
333.1033499109943
 31
0.0
  0
LINE
  8
AIT$50
 10
58.14249558120948
 20
334.9033499109943
 30
0.0
 11
58.14249558120948
 21
333.1033499109942
 31
0.0
  0
LINE
  8
AIT$50
 10
57.14249558120948
 20
334.9033499109943
 30
0.0
 11
57.14249558120959
 21
333.1033499109942
 31
0.0
  0
LINE
  8
AIT$50
 10
55.34249558120964
 20
333.1033499109942
 30
0.0
 11
55.34249558120964
 21
332.1033499109941
 31
0.0
  0
CIRCLE
  8
AIT$50
 10
57.64249558120936
 20
332.6033499109942
 30
0.0
 40
4.0
  0
LINE
  8
AIT$50
 10
125.1424955812033
 20
332.1033499109942
 30
0.0
 11
126.942495581203
 21
332.1033499109942
 31
0.0
  0
LINE
  8
AIT$50
 10
125.1424955812034
 20
333.1033499109943
 30
0.0
 11
126.942495581203
 21
333.1033499109942
 31
0.0
  0
LINE
  8
AIT$50
 10
125.1424955812034
 20
332.1033499109943
 30
0.0
 11
125.1424955812034
 21
330.3033499109941
 31
0.0
  0
LINE
  8
AIT$50
 10
124.1424955812034
 20
332.1033499109943
 30
0.0
 11
124.1424955812033
 21
330.3033499109941
 31
0.0
  0
LINE
  8
AIT$50
 10
126.942495581203
 20
333.1033499109942
 30
0.0
 11
126.942495581203
 21
332.1033499109941
 31
0.0
  0
LINE
  8
AIT$50
 10
124.1424955812034
 20
330.3033499109941
 30
0.0
 11
125.1424955812034
 21
330.3033499109941
 31
0.0
  0
LINE
  8
AIT$50
 10
124.1424955812034
 20
334.9033499109943
 30
0.0
 11
125.1424955812034
 21
334.9033499109943
 31
0.0
  0
LINE
  8
AIT$50
 10
122.3424955812035
 20
332.1033499109942
 30
0.0
 11
124.1424955812033
 21
332.1033499109942
 31
0.0
  0
LINE
  8
AIT$50
 10
122.3424955812035
 20
333.1033499109942
 30
0.0
 11
124.1424955812034
 21
333.1033499109943
 31
0.0
  0
LINE
  8
AIT$50
 10
125.1424955812033
 20
334.9033499109943
 30
0.0
 11
125.1424955812033
 21
333.1033499109942
 31
0.0
  0
LINE
  8
AIT$50
 10
124.1424955812033
 20
334.9033499109943
 30
0.0
 11
124.1424955812034
 21
333.1033499109942
 31
0.0
  0
LINE
  8
AIT$50
 10
122.3424955812035
 20
333.1033499109942
 30
0.0
 11
122.3424955812035
 21
332.1033499109941
 31
0.0
  0
CIRCLE
  8
AIT$50
 10
124.6424955812032
 20
332.6033499109942
 30
0.0
 40
4.0
  0
LINE
  8
AIT$50
 10
492.2876177286921
 20
399.1033484656541
 30
0.0
 11
494.0876177286918
 21
399.1033484656541
 31
0.0
  0
LINE
  8
AIT$50
 10
492.2876177286922
 20
400.1033484656542
 30
0.0
 11
494.0876177286918
 21
400.1033484656541
 31
0.0
  0
LINE
  8
AIT$50
 10
492.2876177286922
 20
399.1033484656542
 30
0.0
 11
492.2876177286922
 21
397.303348465654
 31
0.0
  0
LINE
  8
AIT$50
 10
491.2876177286922
 20
399.1033484656542
 30
0.0
 11
491.2876177286921
 21
397.303348465654
 31
0.0
  0
LINE
  8
AIT$50
 10
494.0876177286918
 20
400.1033484656541
 30
0.0
 11
494.0876177286918
 21
399.103348465654
 31
0.0
  0
LINE
  8
AIT$50
 10
491.2876177286922
 20
397.303348465654
 30
0.0
 11
492.2876177286922
 21
397.303348465654
 31
0.0
  0
LINE
  8
AIT$50
 10
491.2876177286922
 20
401.9033484656542
 30
0.0
 11
492.2876177286922
 21
401.9033484656542
 31
0.0
  0
LINE
  8
AIT$50
 10
489.4876177286922
 20
399.1033484656541
 30
0.0
 11
491.2876177286921
 21
399.1033484656541
 31
0.0
  0
LINE
  8
AIT$50
 10
489.4876177286922
 20
400.1033484656541
 30
0.0
 11
491.2876177286922
 21
400.1033484656542
 31
0.0
  0
LINE
  8
AIT$50
 10
492.2876177286921
 20
401.9033484656542
 30
0.0
 11
492.2876177286921
 21
400.1033484656541
 31
0.0
  0
LINE
  8
AIT$50
 10
491.2876177286921
 20
401.9033484656542
 30
0.0
 11
491.2876177286922
 21
400.1033484656541
 31
0.0
  0
LINE
  8
AIT$50
 10
489.4876177286922
 20
400.1033484656541
 30
0.0
 11
489.4876177286922
 21
399.103348465654
 31
0.0
  0
CIRCLE
  8
AIT$50
 10
491.7876177286919
 20
399.6033484656541
 30
0.0
 40
4.0
  0
LINE
  8
AIT$50
 10
559.2876177286857
 20
399.1033484656541
 30
0.0
 11
561.0876177286854
 21
399.1033484656541
 31
0.0
  0
LINE
  8
AIT$50
 10
559.2876177286857
 20
400.1033484656542
 30
0.0
 11
561.0876177286854
 21
400.1033484656541
 31
0.0
  0
LINE
  8
AIT$50
 10
559.2876177286857
 20
399.1033484656542
 30
0.0
 11
559.2876177286857
 21
397.303348465654
 31
0.0
  0
LINE
  8
AIT$50
 10
558.2876177286857
 20
399.1033484656542
 30
0.0
 11
558.2876177286857
 21
397.303348465654
 31
0.0
  0
LINE
  8
AIT$50
 10
561.0876177286854
 20
400.1033484656541
 30
0.0
 11
561.0876177286854
 21
399.103348465654
 31
0.0
  0
LINE
  8
AIT$50
 10
558.2876177286857
 20
397.303348465654
 30
0.0
 11
559.2876177286857
 21
397.303348465654
 31
0.0
  0
LINE
  8
AIT$50
 10
558.2876177286857
 20
401.9033484656542
 30
0.0
 11
559.2876177286857
 21
401.9033484656542
 31
0.0
  0
LINE
  8
AIT$50
 10
556.4876177286857
 20
399.1033484656541
 30
0.0
 11
558.2876177286857
 21
399.1033484656541
 31
0.0
  0
LINE
  8
AIT$50
 10
556.4876177286857
 20
400.1033484656541
 30
0.0
 11
558.2876177286857
 21
400.1033484656542
 31
0.0
  0
LINE
  8
AIT$50
 10
559.2876177286857
 20
401.9033484656542
 30
0.0
 11
559.2876177286857
 21
400.1033484656541
 31
0.0
  0
LINE
  8
AIT$50
 10
558.2876177286857
 20
401.9033484656542
 30
0.0
 11
558.2876177286857
 21
400.1033484656541
 31
0.0
  0
LINE
  8
AIT$50
 10
556.4876177286857
 20
400.1033484656541
 30
0.0
 11
556.4876177286857
 21
399.103348465654
 31
0.0
  0
CIRCLE
  8
AIT$50
 10
558.7876177286855
 20
399.6033484656541
 30
0.0
 40
4.0
  0
LINE
  8
AIT$50
 10
492.2876177286921
 20
332.1033499109835
 30
0.0
 11
494.0876177286918
 21
332.1033499109835
 31
0.0
  0
LINE
  8
AIT$50
 10
492.2876177286922
 20
333.1033499109836
 30
0.0
 11
494.0876177286918
 21
333.1033499109835
 31
0.0
  0
LINE
  8
AIT$50
 10
492.2876177286922
 20
332.1033499109836
 30
0.0
 11
492.2876177286922
 21
330.3033499109835
 31
0.0
  0
LINE
  8
AIT$50
 10
491.2876177286922
 20
332.1033499109836
 30
0.0
 11
491.2876177286921
 21
330.3033499109835
 31
0.0
  0
LINE
  8
AIT$50
 10
494.0876177286918
 20
333.1033499109835
 30
0.0
 11
494.0876177286918
 21
332.1033499109834
 31
0.0
  0
LINE
  8
AIT$50
 10
491.2876177286922
 20
330.3033499109835
 30
0.0
 11
492.2876177286922
 21
330.3033499109835
 31
0.0
  0
LINE
  8
AIT$50
 10
491.2876177286922
 20
334.9033499109836
 30
0.0
 11
492.2876177286922
 21
334.9033499109836
 31
0.0
  0
LINE
  8
AIT$50
 10
489.4876177286922
 20
332.1033499109835
 30
0.0
 11
491.2876177286921
 21
332.1033499109835
 31
0.0
  0
LINE
  8
AIT$50
 10
489.4876177286922
 20
333.1033499109835
 30
0.0
 11
491.2876177286922
 21
333.1033499109836
 31
0.0
  0
LINE
  8
AIT$50
 10
492.2876177286921
 20
334.9033499109836
 30
0.0
 11
492.2876177286921
 21
333.1033499109835
 31
0.0
  0
LINE
  8
AIT$50
 10
491.2876177286921
 20
334.9033499109836
 30
0.0
 11
491.2876177286922
 21
333.1033499109835
 31
0.0
  0
LINE
  8
AIT$50
 10
489.4876177286922
 20
333.1033499109835
 30
0.0
 11
489.4876177286922
 21
332.1033499109834
 31
0.0
  0
CIRCLE
  8
AIT$50
 10
491.7876177286919
 20
332.6033499109835
 30
0.0
 40
4.0
  0
LINE
  8
AIT$50
 10
559.2876177286857
 20
332.1033499109835
 30
0.0
 11
561.0876177286854
 21
332.1033499109835
 31
0.0
  0
LINE
  8
AIT$50
 10
559.2876177286857
 20
333.1033499109836
 30
0.0
 11
561.0876177286854
 21
333.1033499109835
 31
0.0
  0
LINE
  8
AIT$50
 10
559.2876177286857
 20
332.1033499109836
 30
0.0
 11
559.2876177286857
 21
330.3033499109835
 31
0.0
  0
LINE
  8
AIT$50
 10
558.2876177286857
 20
332.1033499109836
 30
0.0
 11
558.2876177286857
 21
330.3033499109835
 31
0.0
  0
LINE
  8
AIT$50
 10
561.0876177286854
 20
333.1033499109835
 30
0.0
 11
561.0876177286854
 21
332.1033499109834
 31
0.0
  0
LINE
  8
AIT$50
 10
558.2876177286857
 20
330.3033499109835
 30
0.0
 11
559.2876177286857
 21
330.3033499109835
 31
0.0
  0
LINE
  8
AIT$50
 10
558.2876177286857
 20
334.9033499109836
 30
0.0
 11
559.2876177286857
 21
334.9033499109836
 31
0.0
  0
LINE
  8
AIT$50
 10
556.4876177286857
 20
332.1033499109835
 30
0.0
 11
558.2876177286857
 21
332.1033499109835
 31
0.0
  0
LINE
  8
AIT$50
 10
556.4876177286857
 20
333.1033499109835
 30
0.0
 11
558.2876177286857
 21
333.1033499109836
 31
0.0
  0
LINE
  8
AIT$50
 10
559.2876177286857
 20
334.9033499109836
 30
0.0
 11
559.2876177286857
 21
333.1033499109835
 31
0.0
  0
LINE
  8
AIT$50
 10
558.2876177286857
 20
334.9033499109836
 30
0.0
 11
558.2876177286857
 21
333.1033499109835
 31
0.0
  0
LINE
  8
AIT$50
 10
556.4876177286857
 20
333.1033499109835
 30
0.0
 11
556.4876177286857
 21
332.1033499109834
 31
0.0
  0
CIRCLE
  8
AIT$50
 10
558.7876177286855
 20
332.6033499109835
 30
0.0
 40
4.0
  0
LINE
  8
0
 10
-279.5190670321696
 20
406.1033484656618
 30
0.0
 11
-279.5190670321696
 21
326.1033484656614
 31
0.0
  0
LINE
  8
0
 10
-283.5190670321696
 20
403.6033484656578
 30
0.0
 11
-283.5190670321696
 21
328.6033484656505
 31
0.0
  0
LINE
  8
0
 10
-281.0190670321764
 20
406.1033484656578
 30
0.0
 11
-279.5190670321696
 21
406.1033484656618
 31
0.0
  0
LINE
  8
0
 10
-281.0190670321696
 20
326.1033484656505
 30
0.0
 11
-279.5190670321696
 21
326.1033484656505
 31
0.0
  0
ARC
  8
0
 10
-281.0190670321696
 20
328.6033484656505
 30
0.0
 40
2.5
 50
180.0
 51
269.9999999999996
  0
ARC
  8
0
 10
-281.0190670321696
 20
403.6033484656578
 30
0.0
 40
2.5
 50
90.00000000015633
 51
180.0
  0
LINE
  8
0
 10
0.4809329678302845
 20
406.1033484656721
 30
0.0
 11
0.4809329678302845
 21
326.1033484656721
 31
0.0
  0
LINE
  8
PG-0
 10
4.480932967830256
 20
384.7533484656631
 30
0.0
 11
4.480932967830256
 21
367.4533484656629
 31
0.0
  0
LINE
  8
PG-0
 10
4.480932967830256
 20
384.7533484656631
 30
0.0
 11
9.48093296783287
 21
384.7533484656631
 31
0.0
  0
LINE
  8
PG-0
 10
9.48093296783287
 20
384.7533484656631
 30
0.0
 11
9.480932967832984
 21
367.4533484656629
 31
0.0
  0
LINE
  8
PG-0
 10
9.480932967832984
 20
367.4533484656629
 30
0.0
 11
4.480932967830256
 21
367.4533484656629
 31
0.0
  0
LINE
  8
PG-0
 10
9.480932967832984
 20
380.4232214467586
 30
0.0
 11
4.480932967830256
 21
380.4232214467586
 31
0.0
  0
LINE
  8
PG-0
 10
9.480932967832984
 20
371.7834754845719
 30
0.0
 11
4.480932967830256
 21
371.7834754845719
 31
0.0
  0
ARC
  8
PG-0
 10
13.93890014178163
 20
382.5882849562111
 30
0.0
 40
3.542032826051001
 50
322.3201418046339
 51
37.67985819534885
  0
LINE
  8
PG-0
 10
16.74220114967539
 20
380.4232214467577
 30
0.0
 11
11.98093296783184
 21
380.4232214467577
 31
0.0
  0
ARC
  8
PG-0
 10
4.480932967824458
 20
376.1033484656612
 30
0.0
 40
13.0
 50
340.5916905358334
 51
19.40830946419402
  0
LINE
  8
PG-0
 10
17.48093296783321
 20
382.5882849562142
 30
0.0
 11
17.48093296783264
 21
369.6184119751172
 31
0.0
  0
ARC
  8
PG-0
 10
13.93890014178344
 20
369.6184119751172
 30
0.0
 40
3.542032826049146
 50
322.3201418046592
 51
37.67985819538183
  0
LINE
  8
PG-0
 10
16.74220114967312
 20
371.783475484571
 30
0.0
 11
11.98093296783184
 21
371.783475484571
 31
0.0
  0
LINE
  8
PG-0
 10
16.74220114967505
 20
367.4533484656661
 30
0.0
 11
11.98093296783184
 21
367.4533484656624
 31
0.0
  0
LINE
  8
PG-0
 10
16.74220114967448
 20
384.7533484656631
 30
0.0
 11
11.98093296783184
 21
384.7533484656631
 31
0.0
  0
LINE
  8
PG-0
 10
11.98093296783184
 20
384.7533484656631
 30
0.0
 11
11.98093296783184
 21
367.4533484656629
 31
0.0
  0
LINE
  8
PG-0
 10
11.98093296783184
 20
382.5033484656631
 30
0.0
 11
9.480932967832984
 21
382.5033484656631
 31
0.0
  0
LINE
  8
PG-0
 10
11.98093296783184
 20
369.7033484656629
 30
0.0
 11
9.480932967832984
 21
369.7033484656629
 31
0.0
  0
LINE
  8
PG-4
 10
11.98093296783184
 20
381.603348465663
 30
0.0
 11
9.480932967832984
 21
381.603348465663
 31
0.0
  0
LINE
  8
PG-4
 10
11.98093296783184
 20
370.603348465663
 30
0.0
 11
9.480932967832984
 21
370.603348465663
 31
0.0
  0
ARC
  8
PG-0
 10
20.40883076604285
 20
380.039997536371
 30
0.0
 40
3.572663919302099
 50
1.016029271439921
 51
94.1379048775631
  0
LINE
  8
PG-0
 10
20.15103698215665
 20
383.6033484656607
 30
0.0
 11
17.33237072698028
 21
383.6033484656607
 31
0.0
  0
LINE
  8
PG-0
 10
23.98093296783389
 20
380.1033484656612
 30
0.0
 11
23.98093296783389
 21
376.1033484656621
 31
0.0
  0
LINE
  8
PG-0
 10
23.98093296783389
 20
372.103348465663
 30
0.0
 11
23.98093296783389
 21
376.1033484656621
 31
0.0
  0
ARC
  8
PG-0
 10
20.40883076604285
 20
372.1666993949527
 30
0.0
 40
3.572663919302099
 50
265.862095122437
 51
358.9839707285603
  0
LINE
  8
PG-0
 10
20.15103698215665
 20
368.603348465663
 30
0.0
 11
17.3323707269804
 21
368.603348465663
 31
0.0
  0
LINE
  8
PG-0
 10
4.480932967830256
 20
364.7533484656694
 30
0.0
 11
4.480932967830256
 21
347.4533484656697
 31
0.0
  0
LINE
  8
PG-0
 10
4.480932967830256
 20
364.7533484656694
 30
0.0
 11
9.48093296783287
 21
364.7533484656694
 31
0.0
  0
LINE
  8
PG-0
 10
9.48093296783287
 20
364.7533484656694
 30
0.0
 11
9.480932967832984
 21
347.4533484656697
 31
0.0
  0
LINE
  8
PG-0
 10
9.480932967832984
 20
347.4533484656697
 30
0.0
 11
4.480932967830256
 21
347.4533484656697
 31
0.0
  0
LINE
  8
PG-0
 10
9.480932967832984
 20
360.423221446765
 30
0.0
 11
4.480932967830256
 21
360.423221446765
 31
0.0
  0
LINE
  8
PG-0
 10
9.480932967832984
 20
351.7834754845783
 30
0.0
 11
4.480932967830256
 21
351.7834754845783
 31
0.0
  0
ARC
  8
PG-0
 10
13.93890014178163
 20
362.5882849562174
 30
0.0
 40
3.542032826051001
 50
322.3201418046339
 51
37.67985819534885
  0
LINE
  8
PG-0
 10
16.74220114967539
 20
360.4232214467641
 30
0.0
 11
11.98093296783184
 21
360.4232214467641
 31
0.0
  0
ARC
  8
PG-0
 10
4.480932967824458
 20
356.1033484656675
 30
0.0
 40
13.0
 50
340.5916905358334
 51
19.40830946419402
  0
LINE
  8
PG-0
 10
17.48093296783321
 20
362.5882849562206
 30
0.0
 11
17.48093296783264
 21
349.6184119751235
 31
0.0
  0
ARC
  8
PG-0
 10
13.93890014178344
 20
349.6184119751235
 30
0.0
 40
3.542032826049146
 50
322.3201418046592
 51
37.67985819538183
  0
LINE
  8
PG-0
 10
16.74220114967312
 20
351.7834754845774
 30
0.0
 11
11.98093296783184
 21
351.7834754845774
 31
0.0
  0
LINE
  8
PG-0
 10
16.74220114967505
 20
347.4533484656724
 30
0.0
 11
11.98093296783184
 21
347.4533484656693
 31
0.0
  0
LINE
  8
PG-0
 10
16.74220114967448
 20
364.7533484656694
 30
0.0
 11
11.98093296783184
 21
364.7533484656694
 31
0.0
  0
LINE
  8
PG-0
 10
11.98093296783184
 20
364.7533484656694
 30
0.0
 11
11.98093296783184
 21
347.4533484656697
 31
0.0
  0
LINE
  8
PG-0
 10
11.98093296783184
 20
362.5033484656694
 30
0.0
 11
9.480932967832984
 21
362.5033484656694
 31
0.0
  0
LINE
  8
PG-0
 10
11.98093296783184
 20
349.7033484656697
 30
0.0
 11
9.480932967832984
 21
349.7033484656697
 31
0.0
  0
LINE
  8
PG-4
 10
11.98093296783184
 20
361.6033484656693
 30
0.0
 11
9.480932967832984
 21
361.6033484656693
 31
0.0
  0
LINE
  8
PG-4
 10
11.98093296783184
 20
350.6033484656693
 30
0.0
 11
9.480932967832984
 21
350.6033484656693
 31
0.0
  0
ARC
  8
PG-0
 10
20.40883076604285
 20
360.0399975363773
 30
0.0
 40
3.572663919302099
 50
1.016029271439921
 51
94.1379048775631
  0
LINE
  8
PG-0
 10
20.15103698215665
 20
363.6033484656675
 30
0.0
 11
17.33237072698028
 21
363.6033484656675
 31
0.0
  0
LINE
  8
PG-0
 10
23.98093296783389
 20
360.1033484656675
 30
0.0
 11
23.98093296783389
 21
356.1033484656684
 31
0.0
  0
LINE
  8
PG-0
 10
23.98093296783389
 20
352.1033484656693
 30
0.0
 11
23.98093296783389
 21
356.1033484656684
 31
0.0
  0
ARC
  8
PG-0
 10
20.40883076604285
 20
352.1666993949596
 30
0.0
 40
3.572663919302099
 50
265.862095122437
 51
358.9839707285603
  0
LINE
  8
PG-0
 10
20.15103698215665
 20
348.6033484656693
 30
0.0
 11
17.3323707269804
 21
348.6033484656693
 31
0.0
  0
LINE
  8
0
 10
4.480932967830256
 20
403.6033484656616
 30
0.0
 11
4.480932967830256
 21
328.6033484656612
 31
0.0
  0
LINE
  8
0
 10
0.4809329678302845
 20
406.1033484656616
 30
0.0
 11
1.980932967830284
 21
406.1033484656616
 31
0.0
  0
LINE
  8
0
 10
0.4809329678302845
 20
326.1033484656612
 30
0.0
 11
1.980932967830284
 21
326.1033484656612
 31
0.0
  0
ARC
  8
0
 10
1.980932967830284
 20
403.6033484656616
 30
0.0
 40
2.5
 50
0.0
 51
90.0
  0
ARC
  8
0
 10
1.980932967830284
 20
328.6033484656612
 30
0.0
 40
2.5
 50
270.0
 51
0.0
  0
LINE
  8
0
 10
-279.5190670321696
 20
406.1033484656621
 30
0.0
 11
-279.5190670321696
 21
326.103348465662
 31
0.0
  0
LINE
  8
0
 10
0.4809329678302845
 20
406.1033484656616
 30
0.0
 11
0.4809329678302845
 21
326.103348465662
 31
0.0
  0
LINE
  8
0
 10
-279.5190670321694
 20
326.103348465662
 30
0.0
 11
0.4809329678303982
 21
326.1033484656617
 31
0.0
  0
LINE
  8
0
 10
-279.5190670321694
 20
406.1033484656618
 30
0.0
 11
0.4809329678303982
 21
406.1033484656616
 31
0.0
  0
LINE
  8
0
 10
-279.5190670321695
 20
389.8439154744794
 30
0.0
 11
0.4809329678302827
 21
389.8439154744794
 31
0.0
  0
LINE
  8
0
 10
-279.5190670321695
 20
381.843915474486
 30
0.0
 11
0.4809329678302845
 21
381.8439154744859
 31
0.0
  0
LINE
  8
0
 10
-279.5190670321695
 20
349.8439154744858
 30
0.0
 11
0.4809329678302845
 21
349.8439154744858
 31
0.0
  0
LINE
  8
0
 10
-279.5190670321695
 20
341.8439154744921
 30
0.0
 11
0.4809329678302845
 21
341.8439154744921
 31
0.0
  0
LINE
  8
0
 10
453.6117517866393
 20
218.5041205997913
 30
0.0
 11
173.6117517866395
 21
218.5041205997915
 31
0.0
  0
LINE
  8
0
 10
455.1117517866395
 20
298.5041205997912
 30
0.0
 11
172.1117517866396
 21
298.5041205997914
 31
0.0
  0
LINE
  8
0
 10
173.6117517866396
 20
218.5041205997915
 30
0.0
 11
173.6117517866396
 21
298.5041205997912
 31
0.0
  0
LINE
  8
0
 10
453.6117517866395
 20
218.5041205997911
 30
0.0
 11
453.6117517866395
 21
298.5041205997912
 31
0.0
  0
ARC
  8
0
 10
172.1117517866396
 20
296.004120599792
 30
0.0
 40
2.5
 50
90.0
 51
180.0
  0
ARC
  8
0
 10
172.1117517866396
 20
221.0041205997915
 30
0.0
 40
2.5
 50
180.0
 51
270.0
  0
LINE
  8
0
 10
173.6117517866396
 20
218.5041205998061
 30
0.0
 11
172.1117517866396
 21
218.5041205998061
 31
0.0
  0
LINE
  8
0
 10
173.6117517866396
 20
218.5041205997915
 30
0.0
 11
172.1117517866396
 21
218.5041205997915
 31
0.0
  0
LINE
  8
0
 10
169.6117517866397
 20
221.0041205997915
 30
0.0
 11
169.6117517866397
 21
296.004120599792
 31
0.0
  0
LINE
  8
PG-0
 10
153.9416477723133
 20
276.0041205997838
 30
0.0
 11
156.7603140274895
 21
276.0041205997838
 31
0.0
  0
ARC
  8
PG-0
 10
153.6838539884271
 20
272.4407696704936
 30
0.0
 40
3.572663919302099
 50
85.86209512243712
 51
178.9839707285603
  0
LINE
  8
PG-0
 10
150.111751786636
 20
272.5041205997838
 30
0.0
 11
150.111751786636
 21
268.5041205997847
 31
0.0
  0
LINE
  8
PG-0
 10
150.111751786636
 20
264.5041205997856
 30
0.0
 11
150.111751786636
 21
268.5041205997847
 31
0.0
  0
LINE
  8
PG-0
 10
153.9416477723133
 20
261.0041205997856
 30
0.0
 11
156.7603140274896
 21
261.0041205997856
 31
0.0
  0
ARC
  8
PG-0
 10
153.6838539884271
 20
264.5674715290758
 30
0.0
 40
3.572663919302099
 50
181.0160292714399
 51
274.137904877563
  0
LINE
  8
PG-4
 10
162.1117517866381
 20
274.0041205997838
 30
0.0
 11
164.611751786637
 21
274.0041205997838
 31
0.0
  0
LINE
  8
PG-4
 10
162.1117517866381
 20
263.0041205997838
 30
0.0
 11
164.611751786637
 21
263.0041205997838
 31
0.0
  0
LINE
  8
PG-0
 10
162.1117517866381
 20
274.9041205997834
 30
0.0
 11
164.611751786637
 21
274.9041205997834
 31
0.0
  0
LINE
  8
PG-0
 10
162.1117517866381
 20
262.1041205997837
 30
0.0
 11
164.611751786637
 21
262.1041205997837
 31
0.0
  0
LINE
  8
PG-0
 10
162.1117517866381
 20
259.8541205997837
 30
0.0
 11
162.1117517866381
 21
277.1541205997834
 31
0.0
  0
LINE
  8
PG-0
 10
157.3504836047954
 20
259.8541205997837
 30
0.0
 11
162.1117517866381
 21
259.8541205997837
 31
0.0
  0
LINE
  8
PG-0
 10
157.3504836047949
 20
277.1541205997807
 30
0.0
 11
162.1117517866381
 21
277.1541205997839
 31
0.0
  0
LINE
  8
PG-0
 10
157.3504836047968
 20
272.8239935808758
 30
0.0
 11
162.1117517866381
 21
272.8239935808758
 31
0.0
  0
ARC
  8
PG-0
 10
160.1537846126865
 20
274.9890570903296
 30
0.0
 40
3.542032826049146
 50
142.3201418046593
 51
217.6798581953818
  0
LINE
  8
PG-0
 10
156.6117517866367
 20
262.0191841092325
 30
0.0
 11
156.6117517866373
 21
274.9890570903296
 31
0.0
  0
ARC
  8
PG-0
 10
169.6117517866455
 20
268.5041205997856
 30
0.0
 40
13.0
 50
160.5916905358335
 51
199.4083094641939
  0
LINE
  8
PG-0
 10
157.3504836047945
 20
264.1842476186891
 30
0.0
 11
162.1117517866381
 21
264.1842476186891
 31
0.0
  0
ARC
  8
PG-0
 10
160.1537846126883
 20
262.0191841092357
 30
0.0
 40
3.542032826051001
 50
142.3201418046338
 51
217.6798581953488
  0
LINE
  8
PG-0
 10
164.611751786637
 20
272.8239935808749
 30
0.0
 11
169.6117517866397
 21
272.8239935808749
 31
0.0
  0
LINE
  8
PG-0
 10
164.611751786637
 20
264.1842476186882
 30
0.0
 11
169.6117517866397
 21
264.1842476186882
 31
0.0
  0
LINE
  8
PG-0
 10
164.611751786637
 20
277.1541205997834
 30
0.0
 11
169.6117517866397
 21
277.1541205997834
 31
0.0
  0
LINE
  8
PG-0
 10
164.6117517866371
 20
259.8541205997837
 30
0.0
 11
164.611751786637
 21
277.1541205997834
 31
0.0
  0
LINE
  8
PG-0
 10
169.6117517866397
 20
259.8541205997837
 30
0.0
 11
164.6117517866371
 21
259.8541205997837
 31
0.0
  0
LINE
  8
PG-0
 10
169.6117517866397
 20
259.8541205997837
 30
0.0
 11
169.6117517866397
 21
277.1541205997834
 31
0.0
  0
LINE
  8
PG-0
 10
153.9416477723133
 20
256.0041205997902
 30
0.0
 11
156.7603140274895
 21
256.0041205997902
 31
0.0
  0
ARC
  8
PG-0
 10
153.6838539884271
 20
252.4407696705004
 30
0.0
 40
3.572663919302099
 50
85.86209512243712
 51
178.9839707285603
  0
LINE
  8
PG-0
 10
150.111751786636
 20
252.5041205997902
 30
0.0
 11
150.111751786636
 21
248.5041205997911
 31
0.0
  0
LINE
  8
PG-0
 10
150.111751786636
 20
244.504120599792
 30
0.0
 11
150.111751786636
 21
248.5041205997911
 31
0.0
  0
LINE
  8
PG-0
 10
153.9416477723133
 20
241.0041205997924
 30
0.0
 11
156.7603140274896
 21
241.0041205997924
 31
0.0
  0
ARC
  8
PG-0
 10
153.6838539884271
 20
244.5674715290822
 30
0.0
 40
3.572663919302099
 50
181.0160292714399
 51
274.137904877563
  0
LINE
  8
PG-4
 10
162.1117517866381
 20
254.0041205997902
 30
0.0
 11
164.611751786637
 21
254.0041205997902
 31
0.0
  0
LINE
  8
PG-4
 10
162.1117517866381
 20
243.0041205997902
 30
0.0
 11
164.611751786637
 21
243.0041205997902
 31
0.0
  0
LINE
  8
PG-0
 10
162.1117517866381
 20
254.9041205997903
 30
0.0
 11
164.611751786637
 21
254.9041205997903
 31
0.0
  0
LINE
  8
PG-0
 10
162.1117517866381
 20
242.1041205997901
 30
0.0
 11
164.611751786637
 21
242.1041205997901
 31
0.0
  0
LINE
  8
PG-0
 10
162.1117517866381
 20
239.8541205997901
 30
0.0
 11
162.1117517866381
 21
257.1541205997903
 31
0.0
  0
LINE
  8
PG-0
 10
157.3504836047954
 20
239.8541205997901
 30
0.0
 11
162.1117517866381
 21
239.8541205997901
 31
0.0
  0
LINE
  8
PG-0
 10
157.3504836047949
 20
257.1541205997871
 30
0.0
 11
162.1117517866381
 21
257.1541205997907
 31
0.0
  0
LINE
  8
PG-0
 10
157.3504836047968
 20
252.8239935808821
 30
0.0
 11
162.1117517866381
 21
252.8239935808821
 31
0.0
  0
ARC
  8
PG-0
 10
160.1537846126865
 20
254.989057090336
 30
0.0
 40
3.542032826049146
 50
142.3201418046593
 51
217.6798581953818
  0
LINE
  8
PG-0
 10
156.6117517866367
 20
242.0191841092389
 30
0.0
 11
156.6117517866373
 21
254.989057090336
 31
0.0
  0
ARC
  8
PG-0
 10
169.6117517866455
 20
248.504120599792
 30
0.0
 40
13.0
 50
160.5916905358335
 51
199.4083094641939
  0
LINE
  8
PG-0
 10
157.3504836047945
 20
244.1842476186955
 30
0.0
 11
162.1117517866381
 21
244.1842476186955
 31
0.0
  0
ARC
  8
PG-0
 10
160.1537846126883
 20
242.0191841092421
 30
0.0
 40
3.542032826051001
 50
142.3201418046338
 51
217.6798581953488
  0
LINE
  8
PG-0
 10
164.611751786637
 20
252.8239935808812
 30
0.0
 11
169.6117517866397
 21
252.8239935808812
 31
0.0
  0
LINE
  8
PG-0
 10
164.611751786637
 20
244.1842476186945
 30
0.0
 11
169.6117517866397
 21
244.1842476186945
 31
0.0
  0
LINE
  8
PG-0
 10
164.611751786637
 20
257.1541205997903
 30
0.0
 11
169.6117517866397
 21
257.1541205997903
 31
0.0
  0
LINE
  8
PG-0
 10
164.6117517866371
 20
239.8541205997901
 30
0.0
 11
164.611751786637
 21
257.1541205997903
 31
0.0
  0
LINE
  8
PG-0
 10
169.6117517866397
 20
239.8541205997901
 30
0.0
 11
164.6117517866371
 21
239.8541205997901
 31
0.0
  0
LINE
  8
PG-0
 10
169.6117517866397
 20
239.8541205997901
 30
0.0
 11
169.6117517866397
 21
257.1541205997903
 31
0.0
  0
LINE
  8
0
 10
173.6117517866396
 20
218.5041205997811
 30
0.0
 11
173.6117517866396
 21
298.5041205997811
 31
0.0
  0
ARC
  8
0
 10
455.1117517866395
 20
221.0041205997954
 30
0.0
 40
2.5
 50
270.0000000001563
 51
0.0
  0
ARC
  8
0
 10
455.1117517866395
 20
296.0041205998027
 30
0.0
 40
2.5
 50
0.0
 51
89.99999999999958
  0
LINE
  8
0
 10
455.1117517866395
 20
218.5041205997954
 30
0.0
 11
453.6117517866395
 21
218.5041205997954
 31
0.0
  0
LINE
  8
0
 10
455.1117517866463
 20
218.5041205997954
 30
0.0
 11
453.6117517866395
 21
218.5041205997913
 31
0.0
  0
LINE
  8
0
 10
457.6117517866395
 20
221.0041205997954
 30
0.0
 11
457.6117517866395
 21
296.0041205998027
 31
0.0
  0
LINE
  8
0
 10
453.6117517866395
 20
218.5041205997913
 30
0.0
 11
453.6117517866395
 21
298.5041205997918
 31
0.0
  0
LINE
  8
0
 10
453.6117517866395
 20
229.1360767323453
 30
0.0
 11
173.6117517866396
 21
229.1360767323453
 31
0.0
  0
LINE
  8
0
 10
453.6117517866395
 20
227.8513498257307
 30
0.0
 11
173.6117517866396
 21
227.8513498257307
 31
0.0
  0
LINE
  8
0
 10
453.6117517866395
 20
288.8615083236028
 30
0.0
 11
173.6117517866396
 21
288.8615083236028
 31
0.0
  0
ENDSEC
  0
EOF
